  0
SECTION
  2
HEADER
  9
$ACADVER
  1
AC1015
  9
$ACADMAINTVER
 70
     6
  9
$DWGCODEPAGE
  3
ANSI_1254
  9
$INSBASE
 10
0.0
 20
0.0
 30
0.0
  9
$EXTMIN
 10
0.0
 20
0.0
 30
0.0
  9
$EXTMAX
 10
279.4
 20
215.9
 30
0.0
  9
$LIMMIN
 10
0.0
 20
0.0
  9
$LIMMAX
 10
279.4
 20
215.9
  9
$ORTHOMODE
 70
     0
  9
$REGENMODE
 70
     1
  9
$FILLMODE
 70
     1
  9
$QTEXTMODE
 70
     0
  9
$MIRRTEXT
 70
     1
  9
$LTSCALE
 40
1.0
  9
$ATTMODE
 70
     1
  9
$TEXTSIZE
 40
3.5
  9
$TRACEWID
 40
1.0
  9
$TEXTSTYLE
  7
Standard
  9
$CLAYER
  8
0
  9
$CELTYPE
  6
ByLayer
  9
$CECOLOR
 62
   256
  9
$CELTSCALE
 40
1.0
  9
$DISPSILH
 70
     0
  9
$DIMSCALE
 40
1.0
  9
$DIMASZ
 40
3.5
  9
$DIMEXO
 40
1.0
  9
$DIMDLI
 40
3.75
  9
$DIMRND
 40
0.0
  9
$DIMDLE
 40
0.0
  9
$DIMEXE
 40
1.0
  9
$DIMTP
 40
0.0
  9
$DIMTM
 40
0.0
  9
$DIMTXT
 40
3.5
  9
$DIMCEN
 40
2.5
  9
$DIMTSZ
 40
0.0
  9
$DIMTOL
 70
     0
  9
$DIMLIM
 70
     0
  9
$DIMTIH
 70
     1
  9
$DIMTOH
 70
     1
  9
$DIMSE1
 70
     0
  9
$DIMSE2
 70
     0
  9
$DIMTAD
 70
     1
  9
$DIMZIN
 70
     0
  9
$DIMBLK
  1

  9
$DIMASO
 70
     1
  9
$DIMSHO
 70
     1
  9
$DIMPOST
  1

  9
$DIMAPOST
  1

  9
$DIMALT
 70
     0
  9
$DIMALTD
 70
     3
  9
$DIMALTF
 40
0.0393700787
  9
$DIMLFAC
 40
1.0
  9
$DIMTOFL
 70
     1
  9
$DIMTVP
 40
0.0
  9
$DIMTIX
 70
     0
  9
$DIMSOXD
 70
     0
  9
$DIMSAH
 70
     0
  9
$DIMBLK1
  1

  9
$DIMBLK2
  1

  9
$DIMSTYLE
  2
ISO-25
  9
$DIMCLRD
 70
     0
  9
$DIMCLRE
 70
     0
  9
$DIMCLRT
 70
     0
  9
$DIMTFAC
 40
1.0
  9
$DIMGAP
 40
1.524
  9
$DIMJUST
 70
     0
  9
$DIMSD1
 70
     0
  9
$DIMSD2
 70
     0
  9
$DIMTOLJ
 70
     0
  9
$DIMTZIN
 70
     0
  9
$DIMALTZ
 70
     0
  9
$DIMALTTZ
 70
     0
  9
$DIMUPT
 70
     0
  9
$DIMDEC
 70
     2
  9
$DIMTDEC
 70
     2
  9
$DIMALTU
 70
     2
  9
$DIMALTTD
 70
     3
  9
$DIMTXSTY
  7
Standard
  9
$DIMAUNIT
 70
     0
  9
$DIMADEC
 70
     2
  9
$DIMALTRND
 40
0.0
  9
$DIMAZIN
 70
     0
  9
$DIMDSEP
 70
    44
  9
$DIMATFIT
 70
     3
  9
$DIMFRAC
 70
     0
  9
$DIMLDRBLK
  1

  9
$DIMLUNIT
 70
     2
  9
$DIMLWD
 70
    -2
  9
$DIMLWE
 70
    -2
  9
$DIMTMOVE
 70
     0
  9
$LUNITS
 70
     2
  9
$LUPREC
 70
     2
  9
$SKETCHINC
 40
1.0
  9
$FILLETRAD
 40
10.0
  9
$AUNITS
 70
     0
  9
$AUPREC
 70
     2
  9
$MENU
  1
.
  9
$ELEVATION
 40
0.0
  9
$PELEVATION
 40
0.0
  9
$THICKNESS
 40
0.0
  9
$LIMCHECK
 70
     0
  9
$CHAMFERA
 40
0.0
  9
$CHAMFERB
 40
0.0
  9
$CHAMFERC
 40
0.0
  9
$CHAMFERD
 40
0.0
  9
$SKPOLY
 70
     0
  9
$TDCREATE
 40
2460697.541011921
  9
$TDUCREATE
 40
2460697.416011921
  9
$TDUPDATE
 40
2460697.541012037
  9
$TDUUPDATE
 40
2460697.416012037
  9
$TDINDWG
 40
0.0000000116
  9
$TDUSRTIMER
 40
0.0000000116
  9
$USRTIMER
 70
     1
  9
$ANGBASE
 50
0.0
  9
$ANGDIR
 70
     0
  9
$PDMODE
 70
     0
  9
$PDSIZE
 40
-1.0
  9
$PLINEWID
 40
0.0
  9
$SPLFRAME
 70
     0
  9
$SPLINETYPE
 70
     6
  9
$SPLINESEGS
 70
     8
  9
$HANDSEED
  5
B3
  9
$SURFTAB1
 70
     6
  9
$SURFTAB2
 70
     6
  9
$SURFTYPE
 70
     6
  9
$SURFU
 70
     6
  9
$SURFV
 70
     6
  9
$UCSBASE
  2

  9
$UCSNAME
  2

  9
$UCSORG
 10
0.0
 20
0.0
 30
0.0
  9
$UCSXDIR
 10
1.0
 20
0.0
 30
0.0
  9
$UCSYDIR
 10
0.0
 20
1.0
 30
0.0
  9
$UCSORTHOREF
  2

  9
$UCSORTHOVIEW
 70
     0
  9
$UCSORGTOP
 10
0.0
 20
0.0
 30
0.0
  9
$UCSORGBOTTOM
 10
0.0
 20
0.0
 30
0.0
  9
$UCSORGLEFT
 10
0.0
 20
0.0
 30
0.0
  9
$UCSORGRIGHT
 10
0.0
 20
0.0
 30
0.0
  9
$UCSORGFRONT
 10
0.0
 20
0.0
 30
0.0
  9
$UCSORGBACK
 10
0.0
 20
0.0
 30
0.0
  9
$PUCSBASE
  2

  9
$PUCSNAME
  2

  9
$PUCSORG
 10
0.0
 20
0.0
 30
0.0
  9
$PUCSXDIR
 10
1.0
 20
0.0
 30
0.0
  9
$PUCSYDIR
 10
0.0
 20
1.0
 30
0.0
  9
$PUCSORTHOREF
  2

  9
$PUCSORTHOVIEW
 70
     0
  9
$PUCSORGTOP
 10
0.0
 20
0.0
 30
0.0
  9
$PUCSORGBOTTOM
 10
0.0
 20
0.0
 30
0.0
  9
$PUCSORGLEFT
 10
0.0
 20
0.0
 30
0.0
  9
$PUCSORGRIGHT
 10
0.0
 20
0.0
 30
0.0
  9
$PUCSORGFRONT
 10
0.0
 20
0.0
 30
0.0
  9
$PUCSORGBACK
 10
0.0
 20
0.0
 30
0.0
  9
$USERI1
 70
     0
  9
$USERI2
 70
     0
  9
$USERI3
 70
     0
  9
$USERI4
 70
     0
  9
$USERI5
 70
     0
  9
$USERR1
 40
0.0
  9
$USERR2
 40
0.0
  9
$USERR3
 40
0.0
  9
$USERR4
 40
0.0
  9
$USERR5
 40
0.0
  9
$WORLDVIEW
 70
     1
  9
$SHADEDGE
 70
     3
  9
$SHADEDIF
 70
    70
  9
$TILEMODE
 70
     1
  9
$MAXACTVP
 70
    64
  9
$PINSBASE
 10
0.0
 20
0.0
 30
0.0
  9
$PLIMCHECK
 70
     0
  9
$PEXTMIN
 10
1.0000000000E+20
 20
1.0000000000E+20
 30
1.0000000000E+20
  9
$PEXTMAX
 10
-1.0000000000E+20
 20
-1.0000000000E+20
 30
-1.0000000000E+20
  9
$PLIMMIN
 10
0.0
 20
0.0
  9
$PLIMMAX
 10
420.0
 20
297.0
  9
$UNITMODE
 70
     0
  9
$VISRETAIN
 70
     1
  9
$PLINEGEN
 70
     0
  9
$PSLTSCALE
 70
     1
  9
$TREEDEPTH
 70
  3020
  9
$CMLSTYLE
  2
Standard
  9
$CMLJUST
 70
     0
  9
$CMLSCALE
 40
20.0
  9
$PROXYGRAPHICS
 70
     1
  9
$MEASUREMENT
 70
     1
  9
$CELWEIGHT
370
    -1
  9
$ENDCAPS
280
     0
  9
$JOINSTYLE
280
     0
  9
$LWDISPLAY
290
     1
  9
$INSUNITS
 70
     4
  9
$HYPERLINKBASE
  1

  9
$STYLESHEET
  1

  9
$XEDIT
290
     1
  9
$CEPSNTYPE
380
     0
  9
$PSTYLEMODE
290
     1
  9
$FINGERPRINTGUID
  2
{62f18990-7643-4c6d-b013-fa1c894f9479}
  9
$VERSIONGUID
  2
{FAEB1C32-E019-11D5-929B-00C0DF256EC4}
  9
$EXTNAMES
290
     1
  9
$PSVPSCALE
 40
0.0
  9
$OLESTARTUP
290
     0
  0
ENDSEC
  0
SECTION
  2
CLASSES
  0
CLASS
  1
ACDBDICTIONARYWDFLT
  2
AcDbDictionaryWithDefault
  3
ObjectDBX Classes
 90
        0
280
     0
281
     0
  0
CLASS
  1
VISUALSTYLE
  2
AcDbVisualStyle
  3
ObjectDBX Classes
 90
     4095
280
     0
281
     0
  0
CLASS
  1
MATERIAL
  2
AcDbMaterial
  3
ObjectDBX Classes
 90
     1153
280
     0
281
     0
  0
CLASS
  1
SCALE
  2
AcDbScale
  3
ObjectDBX Classes
 90
     1153
280
     0
281
     0
  0
CLASS
  1
TABLESTYLE
  2
AcDbTableStyle
  3
ObjectDBX Classes
 90
     4095
280
     0
281
     0
  0
CLASS
  1
MLEADERSTYLE
  2
AcDbMLeaderStyle
  3
ACDB_MLEADERSTYLE_CLASS
 90
     4095
280
     0
281
     0
  0
CLASS
  1
SUN
  2
AcDbSun
  3
SCENEOE
 90
     1153
280
     0
281
     0
  0
CLASS
  1
ACDBPLACEHOLDER
  2
AcDbPlaceHolder
  3
ObjectDBX Classes
 90
        0
280
     0
281
     0
  0
CLASS
  1
LAYOUT
  2
AcDbLayout
  3
ObjectDBX Classes
 90
        0
280
     0
281
     0
  0
ENDSEC
  0
SECTION
  2
TABLES
  0
TABLE
  2
VPORT
  5
8
330
0
100
AcDbSymbolTable
 70
     1
  0
VPORT
  5
29
330
8
100
AcDbSymbolTableRecord
100
AcDbViewportTableRecord
  2
*Active
 70
     0
 10
0.0
 20
0.0
 11
1.0
 21
1.0
 12
139.7
 22
107.95
 13
0.0
 23
0.0
 14
10.0
 24
10.0
 15
10.0
 25
10.0
 16
0.0
 26
0.0
 36
1.0
 17
0.0
 27
0.0
 37
0.0
 40
215.9
 41
1.2941176471
 42
50.0
 43
0.0
 44
0.0
 50
0.0
 51
0.0
 71
     0
 72
  2000
 73
     1
 74
     3
 75
     0
 76
     0
 77
     0
 78
     0
281
     0
 65
     1
110
0.0
120
0.0
130
0.0
111
1.0
121
0.0
131
0.0
112
0.0
122
1.0
132
0.0
 79
     0
146
0.0
  0
ENDTAB
  0
TABLE
  2
LTYPE
  5
5
330
0
100
AcDbSymbolTable
 70
     6
  0
LTYPE
  5
14
330
5
100
AcDbSymbolTableRecord
100
AcDbLinetypeTableRecord
  2
ByBlock
 70
     0
  3

 72
    65
 73
     0
 40
0.0
  0
LTYPE
  5
15
330
5
100
AcDbSymbolTableRecord
100
AcDbLinetypeTableRecord
  2
ByLayer
 70
     0
  3

 72
    65
 73
     0
 40
0.0
  0
LTYPE
  5
16
330
5
100
AcDbSymbolTableRecord
100
AcDbLinetypeTableRecord
  2
Continuous
 70
     0
  3
Solid line
 72
    65
 73
     0
 40
0.0
  0
LTYPE
  5
6E
330
5
100
AcDbSymbolTableRecord
100
AcDbLinetypeTableRecord
  2
HIDDEN
 70
     0
  3
Hidden __ __ __ __ __ __ __ __ __ __ __ __ __ __
 72
    65
 73
     2
 40
1.905
 49
1.27
 74
     0
 49
-0.635
 74
     0
  0
LTYPE
  5
6F
330
5
100
AcDbSymbolTableRecord
100
AcDbLinetypeTableRecord
  2
PHANTOM
 70
     0
  3
Phantom ______  __  __  ______  __  __  ______
 72
    65
 73
     6
 40
12.7
 49
6.35
 74
     0
 49
-1.27
 74
     0
 49
1.27
 74
     0
 49
-1.27
 74
     0
 49
1.27
 74
     0
 49
-1.27
 74
     0
  0
LTYPE
  5
70
330
5
100
AcDbSymbolTableRecord
100
AcDbLinetypeTableRecord
  2
CENTER
 70
     0
  3
Center ____ _ ____ _ ____ _ ____ _ ____ _ ____
 72
    65
 73
     4
 40
10.16
 49
6.35
 74
     0
 49
-1.27
 74
     0
 49
1.27
 74
     0
 49
-1.27
 74
     0
  0
LTYPE
  5
71
330
5
100
AcDbSymbolTableRecord
100
AcDbLinetypeTableRecord
  2
CENTERX2
 70
     0
  3
Center (2x) ________  __  ________  __  _____
 72
    65
 73
     4
 40
20.32
 49
12.7
 74
     0
 49
-2.54
 74
     0
 49
2.54
 74
     0
 49
-2.54
 74
     0
  0
LTYPE
  5
72
330
5
100
AcDbSymbolTableRecord
100
AcDbLinetypeTableRecord
  2
DOT2
 70
     0
  3
Dot (.5x) ........................................
 72
    65
 73
     2
 40
0.635
 49
0.0
 74
     0
 49
-0.635
 74
     0
  0
ENDTAB
  0
TABLE
  2
LAYER
  5
2
330
0
100
AcDbSymbolTable
 70
    17
  0
LAYER
  5
10
330
2
100
AcDbSymbolTableRecord
100
AcDbLayerTableRecord
  2
0
 70
     0
 62
     7
  6
Continuous
370
    -3
390
F
  0
LAYER
  5
73
330
2
100
AcDbSymbolTableRecord
100
AcDbLayerTableRecord
  2
FORMAT
 70
     0
 62
     7
  6
Continuous
370
    -3
390
F
  0
LAYER
  5
74
330
2
100
AcDbSymbolTableRecord
100
AcDbLayerTableRecord
  2
YARDIMCI_GEOMETRI
 70
     0
 62
    -6
  6
Continuous
290
     0
370
    -3
390
F
  0
LAYER
  5
75
330
2
100
AcDbSymbolTableRecord
100
AcDbLayerTableRecord
  2
SAYFA_CERCEVESI
 70
     0
 62
     7
  6
Continuous
370
    25
390
F
  0
LAYER
  5
76
330
2
100
AcDbSymbolTableRecord
100
AcDbLayerTableRecord
  2
ANTET
 70
     0
 62
     7
  6
Continuous
370
    -3
390
F
  0
LAYER
  5
77
330
2
100
AcDbSymbolTableRecord
100
AcDbLayerTableRecord
  2
OLCU
 70
     0
 62
   150
  6
Continuous
370
    -3
390
F
  0
LAYER
  5
78
330
2
100
AcDbSymbolTableRecord
100
AcDbLayerTableRecord
  2
METIN
 70
     0
 62
    96
  6
Continuous
370
    -3
390
F
  0
LAYER
  5
79
330
2
100
AcDbSymbolTableRecord
100
AcDbLayerTableRecord
  2
BALON
 70
     0
 62
     5
  6
Continuous
370
    -3
390
F
  0
LAYER
  5
7A
330
2
100
AcDbSymbolTableRecord
100
AcDbLayerTableRecord
  2
VURGU
 70
     0
 62
     7
  6
Continuous
370
    -3
390
F
  0
LAYER
  5
7B
330
2
100
AcDbSymbolTableRecord
100
AcDbLayerTableRecord
  2
SILIK
 70
     0
 62
     7
  6
Continuous
370
    -3
390
F
  0
LAYER
  5
7C
330
2
100
AcDbSymbolTableRecord
100
AcDbLayerTableRecord
  2
MODEL
 70
     0
 62
     7
  6
Continuous
370
    -3
390
F
  0
LAYER
  5
7D
330
2
100
AcDbSymbolTableRecord
100
AcDbLayerTableRecord
  2
DETAYLANDıRMA
 70
     0
 62
   190
  6
Continuous
370
    -3
390
F
  0
LAYER
  5
7E
330
2
100
AcDbSymbolTableRecord
100
AcDbLayerTableRecord
  2
TOLERANS
 70
     0
 62
   230
  6
Continuous
370
    -3
390
F
  0
LAYER
  5
7F
330
2
100
AcDbSymbolTableRecord
100
AcDbLayerTableRecord
  2
MERKEZ_CIZGILERI
 70
     0
 62
    30
  6
Continuous
370
    -3
390
F
  0
LAYER
  5
80
330
2
100
AcDbSymbolTableRecord
100
AcDbLayerTableRecord
  2
KESIT-DETAY_CIZGILERI
 70
     0
 62
     7
  6
Continuous
370
    -3
390
F
  0
LAYER
  5
81
330
2
100
AcDbSymbolTableRecord
100
AcDbLayerTableRecord
  2
\U+041E\U+0421\U+0415\U+0412\U+042B\U+0415
 70
     0
 62
     7
  6
Continuous
370
    -3
390
F
  0
LAYER
  5
82
330
2
100
AcDbSymbolTableRecord
100
AcDbLayerTableRecord
  2
\U+0412\U+041E\U+0414\U+042F\U+041D\U+042B\U+0415_\U+0417\U+041D\U+0410\U+041A\U+0418
 70
     0
 62
    11
  6
Continuous
370
    -3
390
F
  0
ENDTAB
  0
TABLE
  2
STYLE
  5
3
330
0
100
AcDbSymbolTable
 70
     1
  0
STYLE
  5
11
330
3
100
AcDbSymbolTableRecord
100
AcDbTextStyleTableRecord
  2
Standard
 70
     0
 40
0.0
 41
1.0
 50
0.0
 71
     0
 42
3.5
  3
txt
  4

  0
ENDTAB
  0
TABLE
  2
VIEW
  5
6
330
0
100
AcDbSymbolTable
 70
     0
  0
ENDTAB
  0
TABLE
  2
UCS
  5
7
330
0
100
AcDbSymbolTable
 70
     0
  0
ENDTAB
  0
TABLE
  2
APPID
  5
9
330
0
100
AcDbSymbolTable
 70
     1
  0
APPID
  5
12
330
9
100
AcDbSymbolTableRecord
100
AcDbRegAppTableRecord
  2
ACAD
 70
     0
  0
ENDTAB
  0
TABLE
  2
DIMSTYLE
  5
A
330
0
100
AcDbSymbolTable
 70
     1
100
AcDbDimStyleTable
  0
DIMSTYLE
105
27
330
A
100
AcDbSymbolTableRecord
100
AcDbDimStyleTableRecord
  2
ISO-25
 70
     0
 41
2.5
 42
0.625
 43
3.75
 44
1.25
 73
     0
 74
     0
 77
     1
 78
     8
140
2.5
141
2.5
143
0.0393700787
147
0.625
171
     3
172
     1
178
     0
271
     2
272
     2
274
     3
278
    44
283
     0
284
     8
340
11
  0
ENDTAB
  0
TABLE
  2
BLOCK_RECORD
  5
1
330
0
100
AcDbSymbolTable
 70
     2
  0
BLOCK_RECORD
  5
1F
330
1
100
AcDbSymbolTableRecord
100
AcDbBlockTableRecord
  2
*Model_Space
340
22
  0
BLOCK_RECORD
  5
1B
330
1
100
AcDbSymbolTableRecord
100
AcDbBlockTableRecord
  2
*Paper_Space
340
1E
  0
BLOCK_RECORD
  5
23
330
1
100
AcDbSymbolTableRecord
100
AcDbBlockTableRecord
  2
*Paper_Space0
340
26
  0
BLOCK_RECORD
  5
85
330
1
100
AcDbSymbolTableRecord
100
AcDbBlockTableRecord
  2
SW_CENTERMARKSYMBOL_0
340
0
102
{BLKREFS
331
90
102
}
  0
ENDTAB
  0
ENDSEC
  0
SECTION
  2
BLOCKS
  0
BLOCK
  5
20
330
1F
100
AcDbEntity
  8
0
100
AcDbBlockBegin
  2
*Model_Space
 70
     0
 10
0.0
 20
0.0
 30
0.0
  3
*Model_Space
  1

  0
ENDBLK
  5
21
330
1F
100
AcDbEntity
  8
0
100
AcDbBlockEnd
  0
BLOCK
  5
1C
330
1B
100
AcDbEntity
 67
     1
  8
0
100
AcDbBlockBegin
  2
*Paper_Space
 70
     0
 10
0.0
 20
0.0
 30
0.0
  3
*Paper_Space
  1

  0
ENDBLK
  5
1D
330
1B
100
AcDbEntity
 67
     1
  8
0
100
AcDbBlockEnd
  0
BLOCK
  5
24
330
23
100
AcDbEntity
  8
0
100
AcDbBlockBegin
  2
*Paper_Space0
 70
     0
 10
0.0
 20
0.0
 30
0.0
  3
*Paper_Space0
  1

  0
ENDBLK
  5
25
330
23
100
AcDbEntity
  8
0
100
AcDbBlockEnd
  0
BLOCK
  5
86
330
85
100
AcDbEntity
  8
0
100
AcDbBlockBegin
  2
SW_CENTERMARKSYMBOL_0
 70
     0
 10
0.0
 20
0.0
 30
0.0
  3
SW_CENTERMARKSYMBOL_0
  1

  0
LINE
  5
88
330
85
100
AcDbEntity
  8
FORMAT
 62
     0
100
AcDbLine
 10
0.0
 20
0.0
 30
0.0
 11
0.0
 21
2.5
 31
0.0
  0
LINE
  5
89
330
85
100
AcDbEntity
  8
FORMAT
 62
     0
100
AcDbLine
 10
0.0
 20
0.0
 30
0.0
 11
-2.5
 21
0.0
 31
0.0
  0
LINE
  5
8A
330
85
100
AcDbEntity
  8
FORMAT
 62
     0
100
AcDbLine
 10
0.0
 20
0.0
 30
0.0
 11
0.0
 21
-2.5
 31
0.0
  0
LINE
  5
8B
330
85
100
AcDbEntity
  8
FORMAT
 62
     0
100
AcDbLine
 10
0.0
 20
0.0
 30
0.0
 11
2.5
 21
0.0
 31
0.0
  0
LINE
  5
8C
330
85
100
AcDbEntity
  8
FORMAT
 62
     0
100
AcDbLine
 10
0.0
 20
5.0
 30
0.0
 11
0.0
 21
160.0
 31
0.0
  0
LINE
  5
8D
330
85
100
AcDbEntity
  8
FORMAT
 62
     0
100
AcDbLine
 10
-5.0
 20
0.0
 30
0.0
 11
-160.0
 21
0.0
 31
0.0
  0
LINE
  5
8E
330
85
100
AcDbEntity
  8
FORMAT
 62
     0
100
AcDbLine
 10
0.0
 20
-5.0
 30
0.0
 11
0.0
 21
-160.0
 31
0.0
  0
LINE
  5
8F
330
85
100
AcDbEntity
  8
FORMAT
 62
     0
100
AcDbLine
 10
5.0
 20
0.0
 30
0.0
 11
160.0
 21
0.0
 31
0.0
  0
ENDBLK
  5
87
330
85
100
AcDbEntity
  8
0
100
AcDbBlockEnd
  0
ENDSEC
  0
SECTION
  2
ENTITIES
  0
CIRCLE
  5
83
330
1F
100
AcDbEntity
  8
0
  6
Continuous
 62
     7
370
    25
100
AcDbCircle
 10
127.8025537254
 20
106.0321058177
 30
0.0
 40
128.8999999999999
  0
CIRCLE
  5
84
330
1F
100
AcDbEntity
  8
0
  6
Continuous
 62
     7
370
    25
100
AcDbCircle
 10
127.8025537254
 20
106.0321058177
 30
0.0
 40
157.5
  0
INSERT
  5
90
330
1F
100
AcDbEntity
  8
FORMAT
100
AcDbBlockReference
  2
SW_CENTERMARKSYMBOL_0
 10
127.8025537254
 20
106.0321058177
 30
0.0
  0
ARC
  5
91
330
1F
100
AcDbEntity
  8
0
  6
Continuous
 62
     7
370
    25
100
AcDbCircle
 10
123.3530565293
 20
812.3250427867
 30
0.0
 40
472.5000000000001
100
AcDbArc
 50
270.5395580494
 51
290.0445235438
  0
ARC
  5
92
330
1F
100
AcDbEntity
  8
0
  6
Continuous
 62
     7
370
    25
100
AcDbCircle
 10
132.2520509215
 20
812.3250427867
 30
0.0
 40
472.5000000000001
100
AcDbArc
 50
249.9554764562
 51
269.4604419506
  0
LINE
  5
93
330
1F
100
AcDbEntity
  8
0
  6
Continuous
 62
     7
370
    25
100
AcDbLine
 10
-29.6974462746
 20
546.9265071482
 30
0.0
 11
-29.6974462746
 21
368.4459935425
 31
0.0
  0
LINE
  5
94
330
1F
100
AcDbEntity
  8
0
  6
Continuous
 62
     7
370
    25
100
AcDbLine
 10
285.3025537254
 20
368.4459935425
 30
0.0
 11
285.3025537254
 21
546.9265071482
 31
0.0
  0
LINE
  5
95
330
1F
100
AcDbEntity
  8
0
  6
Continuous
 62
     7
370
    25
100
AcDbLine
 10
127.8025537254
 20
368.4459935425
 30
0.0
 11
285.3025537254
 21
368.4459935425
 31
0.0
  0
LINE
  5
96
330
1F
100
AcDbEntity
  8
0
  6
Continuous
 62
     7
370
    25
100
AcDbLine
 10
-29.6974462746
 20
368.4459935425
 30
0.0
 11
127.8025537254
 21
368.4459935425
 31
0.0
  0
LINE
  5
97
330
1F
100
AcDbEntity
  8
0
  6
Continuous
 62
     7
370
    25
100
AcDbLine
 10
127.8025537254
 20
546.9265071482
 30
0.0
 11
285.3025537254
 21
546.9265071482
 31
0.0
  0
LINE
  5
98
330
1F
100
AcDbEntity
  8
0
  6
Continuous
 62
     7
370
    25
100
AcDbLine
 10
-29.6974462746
 20
546.9265071482
 30
0.0
 11
127.8025537254
 21
546.9265071482
 31
0.0
  0
LINE
  5
99
330
1F
100
AcDbEntity
  8
0
  6
Continuous
 62
     7
370
    25
100
AcDbLine
 10
285.3025537254
 20
-337.3493796923
 30
0.0
 11
285.3025537254
 21
-158.8688660866
 31
0.0
  0
LINE
  5
9A
330
1F
100
AcDbEntity
  8
0
  6
Continuous
 62
     7
370
    25
100
AcDbLine
 10
-29.6974462746
 20
-158.8688660866
 30
0.0
 11
-29.6974462746
 21
-337.3493796923
 31
0.0
  0
ARC
  5
9B
330
1F
100
AcDbEntity
  8
0
  6
Continuous
 62
     7
370
    25
100
AcDbCircle
 10
132.2520509215
 20
-602.7479153308
 30
0.0
 40
472.4999999999999
100
AcDbArc
 50
90.5395580494
 51
110.0445235438
  0
ARC
  5
9C
330
1F
100
AcDbEntity
  8
0
  6
Continuous
 62
     7
370
    25
100
AcDbCircle
 10
123.3530565293
 20
-602.7479153308
 30
0.0
 40
472.4999999999999
100
AcDbArc
 50
69.9554764562
 51
89.4604419506
  0
LINE
  5
9D
330
1F
100
AcDbEntity
  8
0
  6
Continuous
 62
     7
370
    25
100
AcDbLine
 10
285.3025537254
 20
-337.3493796923
 30
0.0
 11
-29.6974462746
 21
-337.3493796923
 31
0.0
  0
LINE
  5
9E
330
1F
100
AcDbEntity
  8
0
  6
Continuous
 62
     7
370
    25
100
AcDbLine
 10
285.3025537254
 20
-158.8688660866
 30
0.0
 11
-29.6974462746
 21
-158.8688660866
 31
0.0
  0
ARC
  5
9F
330
1F
100
AcDbEntity
  8
0
  6
Continuous
 62
     7
370
    25
100
AcDbCircle
 10
881.8811070614
 20
110.4816030137
 30
0.0
 40
472.5000000000001
100
AcDbArc
 50
180.5395580494
 51
200.0445235438
  0
ARC
  5
A0
330
1F
100
AcDbEntity
  8
0
  6
Continuous
 62
     7
370
    25
100
AcDbCircle
 10
881.8811070614
 20
101.5826086216
 30
0.0
 40
472.5000000000001
100
AcDbArc
 50
159.9554764562
 51
179.4604419506
  0
LINE
  5
A1
330
1F
100
AcDbEntity
  8
0
  6
Continuous
 62
     7
370
    25
100
AcDbLine
 10
616.482571423
 20
263.5321058177
 30
0.0
 11
438.0020578172
 21
263.5321058177
 31
0.0
  0
LINE
  5
A2
330
1F
100
AcDbEntity
  8
0
  6
Continuous
 62
     7
370
    25
100
AcDbLine
 10
438.0020578172
 20
-51.4678941823
 30
0.0
 11
616.482571423
 21
-51.4678941823
 31
0.0
  0
LINE
  5
A3
330
1F
100
AcDbEntity
  8
0
  6
Continuous
 62
     7
370
    25
100
AcDbLine
 10
438.0020578172
 20
263.5321058177
 30
0.0
 11
438.0020578172
 21
-51.4678941823
 31
0.0
  0
LINE
  5
A4
330
1F
100
AcDbEntity
  8
0
  6
Continuous
 62
     7
370
    25
100
AcDbLine
 10
616.482571423
 20
263.5321058177
 30
0.0
 11
616.482571423
 21
-51.4678941823
 31
0.0
  0
ARC
  5
A5
330
1F
100
AcDbEntity
  8
0
  6
Continuous
 62
     7
370
    25
100
AcDbCircle
 10
-604.9916318667
 20
101.5826086216
 30
0.0
 40
472.5000000000001
100
AcDbArc
 50
0.5395580494
 51
20.0445235438
  0
ARC
  5
A6
330
1F
100
AcDbEntity
  8
0
  6
Continuous
 62
     7
370
    25
100
AcDbCircle
 10
-604.9916318667
 20
110.4816030137
 30
0.0
 40
472.5000000000001
100
AcDbArc
 50
339.9554764562
 51
359.4604419506
  0
LINE
  5
A7
330
1F
100
AcDbEntity
  8
0
  6
Continuous
 62
     7
370
    25
100
AcDbLine
 10
-339.5930962283
 20
-51.4678941823
 30
0.0
 11
-161.1125826225
 21
-51.4678941823
 31
0.0
  0
LINE
  5
A8
330
1F
100
AcDbEntity
  8
0
  6
Continuous
 62
     7
370
    25
100
AcDbLine
 10
-161.1125826225
 20
263.5321058177
 30
0.0
 11
-339.5930962283
 21
263.5321058177
 31
0.0
  0
LINE
  5
A9
330
1F
100
AcDbEntity
  8
0
  6
Continuous
 62
     7
370
    25
100
AcDbLine
 10
-161.1125826225
 20
-51.4678941823
 30
0.0
 11
-161.1125826225
 21
263.5321058177
 31
0.0
  0
LINE
  5
AA
330
1F
100
AcDbEntity
  8
0
  6
Continuous
 62
     7
370
    25
100
AcDbLine
 10
-339.5930962283
 20
-51.4678941823
 30
0.0
 11
-339.5930962283
 21
263.5321058177
 31
0.0
  0
LINE
  5
AB
330
1F
100
AcDbEntity
  8
0
  6
Continuous
 62
     7
370
    25
100
AcDbLine
 10
392.8140620925
 20
-384.3327957086
 30
0.0
 11
519.0188435728
 21
-457.1892652636
 31
0.0
  0
LINE
  5
AC
330
1F
100
AcDbEntity
  8
0
  6
Continuous
 62
     7
370
    25
100
AcDbLine
 10
676.506043963
 20
-184.3838736137
 30
0.0
 11
550.3012624827
 21
-111.5274040587
 31
0.0
  0
LWPOLYLINE
  5
AD
330
1F
100
AcDbEntity
  8
0
  6
Continuous
 62
     7
370
    25
100
AcDbPolyline
 90
      137
 70
   128
 43
0.0
 10
471.5576622876
 20
-376.5352777557
 10
476.7010825816
 20
-373.4288194566
 10
481.8335265574
 20
-370.0545405653
 10
486.9440413211
 20
-366.4196419632
 10
492.0217207765
 20
-362.5318807069
 10
497.0557288997
 20
-358.399553475
 10
502.0353228639
 20
-354.031478862
 10
506.9498759644
 20
-349.4369785592
 10
511.7889002974
 20
-344.6258574619
 10
516.542069141
 20
-339.6083827449
 10
521.1992389933
 20
-334.3952619521
 10
525.7504712193
 20
-328.9976201461
 10
530.18605326
 20
-323.4269761663
 10
534.4965193597
 20
-317.6952180479
 10
538.6726707666
 20
-311.8145776516
 10
542.7055953631
 20
-305.7976045601
 10
546.586686685
 20
-299.6571392975
 10
550.3076622876
 20
-293.4062859259
 10
553.8605814217
 20
-287.0583840816
 10
557.2378619786
 20
-280.6269805069
 10
560.4322966715
 20
-274.1258001412
 10
563.4370684158
 20
-267.5687168309
 10
566.2457648771
 20
-260.9697237225
 10
568.8523921557
 20
-254.3429033996
 10
571.2513875775
 20
-247.7023978308
 10
573.4376315655
 20
-241.0623781897
 10
575.4064585647
 20
-234.4370146128
 10
577.1536669992
 20
-227.8404459599
 10
578.6755282382
 20
-221.2867496408
 10
579.9687945529
 20
-214.7899115739
 10
581.030706048
 20
-208.3637963389
 10
581.8589965508
 20
-202.0221175896
 10
582.4518984476
 20
-195.7784087881
 10
582.8081464559
 20
-189.6459943236
 10
582.9269803245
 20
-183.6379610776
 10
582.8081464559
 20
-177.7671304959
 10
582.4518984476
 20
-172.0460312267
 10
581.8589965508
 20
-166.4868723842
 10
581.030706048
 20
-161.1015174935
 10
579.9687945529
 20
-155.9014591734
 10
578.6755282382
 20
-150.8977946104
 10
577.1536669992
 20
-146.1012018768
 10
575.4064585647
 20
-141.5219171433
 10
573.4376315655
 20
-137.1697128341
 10
571.2513875775
 20
-133.0538767728
 10
568.8523921557
 20
-129.1831923608
 10
566.2457648771
 20
-125.5659198337
 10
563.4370684158
 20
-122.2097786334
 10
560.4322966715
 20
-119.1219309344
 10
557.2378619786
 20
-116.3089663592
 10
553.8605814217
 20
-113.7768879161
 10
550.3076622876
 20
-111.5310991879
 10
546.586686685
 20
-109.5763928012
 10
542.7055953631
 20
-107.9169401977
 10
538.6726707666
 20
-106.556282733
 10
534.4965193597
 20
-105.4973241186
 10
530.18605326
 20
-104.7423242257
 10
525.7504712193
 20
-104.292894262
 10
521.1992389933
 20
-104.1499933337
 10
516.542069141
 20
-104.3139263987
 10
511.7889002974
 20
-104.7843436154
 10
506.9498759644
 20
-105.5602410899
 10
502.0353228639
 20
-106.6399630178
 10
497.0557288997
 20
-108.0212052181
 10
492.0217207765
 20
-109.7010200504
 10
486.9440413211
 20
-111.6758227052
 10
481.8335265574
 20
-113.941398854
 10
476.7010825816
 20
-116.4929136432
 10
471.5576622876
 20
-119.3249220117
 10
466.4142419937
 20
-122.4313803108
 10
461.2817980178
 20
-125.805659202
 10
456.1712832542
 20
-129.4405578042
 10
451.0936037988
 20
-133.3283190604
 10
446.0595956755
 20
-137.4606462924
 10
441.0800017114
 20
-141.8287209054
 10
436.1654486108
 20
-146.4232212081
 10
431.3264242779
 20
-151.2343423055
 10
426.5732554343
 20
-156.2518170225
 10
421.9160855819
 20
-161.4649378152
 10
417.3648533559
 20
-166.8625796213
 10
412.9292713153
 20
-172.433223601
 10
408.6188052156
 20
-178.1649817194
 10
404.4426538087
 20
-184.0456221158
 10
400.4097292121
 20
-190.0625952072
 10
396.5286378903
 20
-196.2030604699
 10
392.8076622876
 20
-202.4539138414
 10
389.2547431536
 20
-208.8018156858
 10
385.8774625967
 20
-215.2332192605
 10
382.6830279037
 20
-221.7343996262
 10
379.6782561595
 20
-228.2914829364
 10
376.8695596981
 20
-234.8904760449
 10
374.2629324196
 20
-241.5172963678
 10
371.8639369978
 20
-248.1578019365
 10
369.6776930098
 20
-254.7978215776
 10
367.7088660105
 20
-261.4231851545
 10
365.961657576
 20
-268.0197538075
 10
364.4397963371
 20
-274.5734501266
 10
363.1465300223
 20
-281.0702881935
 10
362.0846185272
 20
-287.4964034285
 10
361.2563280244
 20
-293.8380821777
 10
360.6634261276
 20
-300.0817909792
 10
360.3071781193
 20
-306.2142054437
 10
360.1883442507
 20
-312.2222386897
 10
360.3071781193
 20
-318.0930692715
 10
360.6634261276
 20
-323.8141685407
 10
361.2563280244
 20
-329.3733273832
 10
362.0846185272
 20
-334.7586822739
 10
363.1465300223
 20
-339.958740594
 10
364.4397963371
 20
-344.962405157
 10
365.961657576
 20
-349.7589978906
 10
367.7088660105
 20
-354.3382826241
 10
369.6776930098
 20
-358.6904869332
 10
371.8639369978
 20
-362.8063229946
 10
374.2629324196
 20
-366.6770074066
 10
376.8695596982
 20
-370.2942799337
 10
379.6782561595
 20
-373.650421134
 10
382.6830279037
 20
-376.738268833
 10
385.8774625967
 20
-379.5512334081
 10
389.2547431536
 20
-382.0833118513
 10
392.8076622876
 20
-384.3291005794
 10
396.5286378903
 20
-386.2838069662
 10
400.4097292121
 20
-387.9432595697
 10
404.4426538087
 20
-389.3039170344
 10
408.6188052156
 20
-390.3628756488
 10
412.9292713153
 20
-391.1178755417
 10
417.3648533559
 20
-391.5673055054
 10
421.9160855819
 20
-391.7102064337
 10
426.5732554343
 20
-391.5462733687
 10
431.3264242779
 20
-391.075856152
 10
436.1654486108
 20
-390.2999586775
 10
441.0800017114
 20
-389.2202367496
 10
446.0595956755
 20
-387.8389945492
 10
451.0936037988
 20
-386.1591797169
 10
456.1712832542
 20
-384.1843770622
 10
461.2817980178
 20
-381.9188009134
 10
466.4142419937
 20
-379.3672861241
 10
471.5576622876
 20
-376.5352777557
  0
LWPOLYLINE
  5
AE
330
1F
100
AcDbEntity
  8
0
  6
Continuous
 62
     7
370
    25
100
AcDbPolyline
 90
       53
 70
   128
 43
0.0
 10
597.7624437679
 20
-449.3917473107
 10
602.9058640619
 20
-446.2852890116
 10
608.0383080377
 20
-442.9110101203
 10
613.1488228014
 20
-439.2761115182
 10
618.2265022567
 20
-435.3883502619
 10
623.26051038
 20
-431.25602303
 10
628.2401043442
 20
-426.887948417
 10
633.1546574447
 20
-422.2934481142
 10
637.9936817777
 20
-417.4823270169
 10
642.7468506213
 20
-412.4648522999
 10
647.4040204736
 20
-407.2517315071
 10
651.9552526996
 20
-401.8540897011
 10
656.3908347402
 20
-396.2834457214
 10
660.70130084
 20
-390.551687603
 10
664.8774522469
 20
-384.6710472066
 10
668.9103768434
 20
-378.6540741152
 10
672.7914681652
 20
-372.5136088525
 10
676.5124437679
 20
-366.262755481
 10
680.0653629019
 20
-359.9148536366
 10
683.4426434589
 20
-353.4834500619
 10
686.6370781518
 20
-346.9822696962
 10
689.6418498961
 20
-340.425186386
 10
692.4505463574
 20
-333.8261932775
 10
695.0571736359
 20
-327.1993729546
 10
697.4561690578
 20
-320.5588673858
 10
699.6424130457
 20
-313.9188477447
 10
701.611240045
 20
-307.2934841678
 10
703.3584484795
 20
-300.6969155149
 10
704.8803097185
 20
-294.1432191958
 10
706.1735760332
 20
-287.6463811289
 10
707.2354875283
 20
-281.2202658939
 10
708.0637780311
 20
-274.8785871446
 10
708.6566799279
 20
-268.6348783432
 10
709.0129279362
 20
-262.5024638786
 10
709.1317618048
 20
-256.4944306327
 10
709.0129279362
 20
-250.6236000509
 10
708.6566799279
 20
-244.9025007817
 10
708.0637780311
 20
-239.3433419392
 10
707.2354875283
 20
-233.9579870485
 10
706.1735760332
 20
-228.7579287284
 10
704.8803097185
 20
-223.7542641654
 10
703.3584484795
 20
-218.9576714318
 10
701.611240045
 20
-214.3783866983
 10
699.6424130457
 20
-210.0261823892
 10
697.4561690578
 20
-205.9103463278
 10
695.0571736359
 20
-202.0396619158
 10
692.4505463574
 20
-198.4223893887
 10
689.6418498961
 20
-195.0662481884
 10
686.6370781518
 20
-191.9784004894
 10
683.4426434589
 20
-189.1654359142
 10
680.0653629019
 20
-186.6333574711
 10
676.5124437679
 20
-184.387568743
 10
676.506043963
 20
-184.3838736137
  0
LWPOLYLINE
  5
AF
330
1F
100
AcDbEntity
  8
0
  6
Continuous
 62
     7
370
    25
100
AcDbPolyline
 90
       18
 70
   128
 43
0.0
 10
519.0188435728
 20
-457.1892652636
 10
522.7334193706
 20
-459.1402765212
 10
526.6145106924
 20
-460.7997291247
 10
530.647435289
 20
-462.1603865894
 10
534.8235866959
 20
-463.2193452038
 10
539.1340527956
 20
-463.9743450967
 10
543.5696348362
 20
-464.4237750604
 10
548.1208670622
 20
-464.5666759887
 10
552.7780369146
 20
-464.4027429237
 10
557.5312057581
 20
-463.932325707
 10
562.3702300911
 20
-463.1564282325
 10
567.2847831917
 20
-462.0767063046
 10
572.2643771558
 20
-460.6954641042
 10
577.2983852791
 20
-459.0156492719
 10
582.3760647345
 20
-457.0408466172
 10
587.4865794981
 20
-454.7752704684
 10
592.619023474
 20
-452.2237556792
 10
597.7624437679
 20
-449.3917473107
  0
LWPOLYLINE
  5
B0
330
1F
100
AcDbEntity
  8
0
  6
Continuous
 62
     7
370
    25
100
AcDbPolyline
 90
      124
 70
   128
 43
0.0
 10
471.5576622876
 20
-353.1822105358
 10
476.2116344527
 20
-350.3582342229
 10
480.8534649358
 20
-347.2670346026
 10
485.4710437311
 20
-343.9166762618
 10
490.0523241028
 20
-340.3158999028
 10
494.5853540136
 20
-336.4740995401
 10
499.0583073059
 20
-332.401297992
 10
503.4595145554
 20
-328.1081207329
 10
507.7774935148
 20
-323.605768172
 10
512.00097907
 20
-318.905986433
 10
516.1189526296
 20
-314.02103671
 10
520.1206708705
 20
-308.963663279
 10
523.9956937669
 20
-303.7470602497
 10
527.7339118265
 20
-298.384837144
 10
531.3255724652
 20
-292.8909833896
 10
534.7613054504
 20
-287.2798318237
 10
538.032147347
 20
-281.5660213
 10
541.1295649022
 20
-275.7644584979
 10
544.045477307
 20
-269.8902790322
 10
546.7722772789
 20
-263.9588079666
 10
549.3028509083
 20
-257.9855198316
 10
551.6305962174
 20
-251.9859982542
 10
553.7494403844
 20
-245.9758953009
 10
555.6538555869
 20
-239.9708906443
 10
557.3388734231
 20
-233.9866506559
 10
558.8000978738
 20
-228.0387875344
 10
560.0337167712
 20
-222.1428185757
 10
561.0365117446
 20
-216.3141256896
 10
561.8058666163
 20
-210.5679152703
 10
562.3397742273
 20
-204.9191785247
 10
562.6368416736
 20
-199.3826523619
 10
562.6962939402
 20
-193.9727809467
 10
562.5179759228
 20
-188.7036780159
 10
562.1023528329
 20
-183.5890900573
 10
561.4505089836
 20
-178.642360447
 10
560.5641449611
 20
-173.8763946377
 10
559.445573188
 20
-169.3036264901
 10
558.0977118902
 20
-164.9359858341
 10
556.524077484
 20
-160.7848673455
 10
554.7287754019
 20
-156.8611008185
 10
552.716489382
 20
-153.1749229119
 10
550.4924692488
 20
-149.7359504431
 10
548.0625172169
 20
-146.5531552985
 10
545.4329727537
 20
-143.6348410273
 10
542.6106960405
 20
-140.9886211781
 10
539.603050075
 20
-138.6213994365
 10
536.417881462
 20
-136.5393516136
 10
533.0634999428
 20
-134.7479095346
 10
529.5486567158
 20
-133.2517468672
 10
525.8825216057
 20
-132.054766929
 10
522.0746591404
 20
-131.160092504
 10
518.1350035982
 20
-130.5700576957
 10
514.0738330907
 20
-130.2862018374
 10
509.901742748
 20
-130.3092654768
 10
505.6296170774
 20
-130.6391884433
 10
501.2686015671
 20
-131.2751100057
 10
496.8300736085
 20
-132.2153711173
 10
492.3256128144
 20
-133.457518744
 10
487.7669708086
 20
-134.9983122646
 10
483.1660405676
 20
-136.8337319248
 10
478.5348253931
 20
-138.9589893241
 10
473.8854075967
 20
-141.3685399087
 10
469.2299169786
 20
-144.0560974363
 10
464.5804991822
 20
-147.0146503761
 10
459.9492840077
 20
-150.2364802013
 10
455.3483537667
 20
-153.7131815257
 10
450.7897117609
 20
-157.4356840326
 10
446.2852509667
 20
-161.3942761379
 10
441.8467230082
 20
-165.5786303268
 10
437.4857074978
 20
-169.9778300971
 10
433.2135818273
 20
-174.5803984388
 10
429.0414914846
 20
-179.3743277765
 10
424.980320977
 20
-184.3471112961
 10
421.0406654349
 20
-189.4857755732
 10
417.2328029695
 20
-194.7769144192
 10
413.5666678594
 20
-200.2067238572
 10
410.0518246324
 20
-205.7610381343
 10
406.6974431133
 20
-211.4253666787
 10
403.5122745003
 20
-217.1849319039
 10
400.5046285347
 20
-223.024707762
 10
397.6823518215
 20
-228.9294589444
 10
395.0528073583
 20
-234.8837806297
 10
392.6228553264
 20
-240.8721386722
 10
390.3988351933
 20
-246.8789101297
 10
388.3865491734
 20
-252.8884240212
 10
386.5912470913
 20
-258.8850022111
 10
385.0176126851
 20
-264.8530003117
 10
383.6697513873
 20
-270.7768484974
 10
382.5511796141
 20
-276.6410921245
 10
381.6648155916
 20
-282.430432051
 10
381.0129717423
 20
-288.1297645501
 10
380.5973486524
 20
-293.724220714
 10
380.4190306351
 20
-299.1992052454
 10
380.4784829017
 20
-304.5404345347
 10
380.775550348
 20
-309.7339739245
 10
381.309457959
 20
-314.7662740637
 10
382.0788128307
 20
-319.6242062557
 10
383.081607804
 20
-324.2950967101
 10
384.3152267015
 20
-328.766759607
 10
385.7764511522
 20
-333.0275288885
 10
387.4614689883
 20
-337.066288694
 10
389.3658841909
 20
-340.8725023604
 10
391.4847283579
 20
-344.4362399107
 10
393.812473667
 20
-347.7482039606
 10
396.3430472963
 20
-350.799753974
 10
399.0698472683
 20
-353.5829288054
 10
401.9857596731
 20
-356.0904674695
 10
405.0831772282
 20
-358.3158280841
 10
408.3540191249
 20
-360.2532049374
 10
411.7897521101
 20
-361.8975436346
 10
415.3814127487
 20
-363.2445542837
 10
419.1196308083
 20
-364.2907226876
 10
422.9946537047
 20
-365.0333195126
 10
426.9963719457
 20
-365.4704074082
 10
431.1143455052
 20
-365.600846062
 10
435.3378310605
 20
-365.4242951745
 10
439.6558100198
 20
-364.9412153468
 10
444.0570172693
 20
-364.152866879
 10
448.5299705616
 20
-363.0613064823
 10
453.0630004724
 20
-361.669381913
 10
457.6442808442
 20
-359.9807245436
 10
462.2618596395
 20
-357.9997398881
 10
466.9036901226
 20
-355.7315961094
 10
471.5576622876
 20
-353.1822105358
  0
LWPOLYLINE
  5
B1
330
1F
100
AcDbEntity
  8
0
  6
Continuous
 62
     7
370
    25
100
AcDbPolyline
 90
       23
 70
   128
 43
0.0
 10
559.5693944768
 20
-224.4862389846
 10
558.0081223942
 20
-225.8905169719
 10
553.5695944357
 20
-230.0748711608
 10
549.2085789253
 20
-234.4740709311
 10
544.9364532547
 20
-239.0766392727
 10
540.764362912
 20
-243.8705686105
 10
536.7031924045
 20
-248.8433521301
 10
532.7635368623
 20
-253.9820164072
 10
528.955674397
 20
-259.2731552532
 10
525.2895392869
 20
-264.7029646912
 10
521.7746960599
 20
-270.2572789683
 10
518.4203145407
 20
-275.9216075127
 10
515.2351459278
 20
-281.6811727379
 10
512.2274999622
 20
-287.520948596
 10
509.405223249
 20
-293.4256997784
 10
506.7756787858
 20
-299.3800214636
 10
504.3457267539
 20
-305.3683795062
 10
502.1217066207
 20
-311.3751509636
 10
500.1094206009
 20
-317.3846648552
 10
498.3141185187
 20
-323.3812430451
 10
496.7404841125
 20
-329.3492411457
 10
495.3926228148
 20
-335.2730893314
 10
495.2688015259
 20
-335.8702016168
  0
ENDSEC
  0
SECTION
  2
OBJECTS
  0
DICTIONARY
  5
C
330
0
100
AcDbDictionary
281
     1
  3
ACAD_GROUP
350
D
  3
ACAD_LAYOUT
350
1A
  3
ACAD_MLINESTYLE
350
17
  3
ACAD_PLOTSETTINGS
350
19
  3
ACAD_PLOTSTYLENAME
350
E
  3
ACAD_SCALELIST
350
47
  3
DWGPROPS
350
B2
  0
DICTIONARY
  5
D
102
{ACAD_REACTORS
330
C
102
}
330
C
100
AcDbDictionary
281
     1
  0
DICTIONARY
  5
1A
102
{ACAD_REACTORS
330
C
102
}
330
C
100
AcDbDictionary
281
     1
  3
Layout1
350
1E
  3
Layout2
350
26
  3
Model
350
22
  0
DICTIONARY
  5
17
102
{ACAD_REACTORS
330
C
102
}
330
C
100
AcDbDictionary
281
     1
  3
Standard
350
18
  0
DICTIONARY
  5
19
102
{ACAD_REACTORS
330
C
102
}
330
C
100
AcDbDictionary
281
     1
  0
ACDBDICTIONARYWDFLT
  5
E
102
{ACAD_REACTORS
330
C
102
}
330
C
100
AcDbDictionary
281
     1
  3
Normal
350
F
100
AcDbDictionaryWithDefault
340
F
  0
DICTIONARY
  5
47
102
{ACAD_REACTORS
330
C
102
}
330
C
100
AcDbDictionary
281
     1
  3
A0
350
48
  3
A1
350
49
  3
A2
350
4A
  3
A3
350
4B
  3
A4
350
4C
  3
A5
350
4D
  3
A6
350
4E
  3
A7
350
4F
  3
A8
350
50
  3
A9
350
51
  3
B0
350
52
  3
B1
350
53
  3
B2
350
54
  3
B3
350
55
  3
B4
350
56
  3
B5
350
57
  3
B6
350
58
  3
B7
350
59
  3
B8
350
5A
  3
B9
350
5B
  3
C0
350
5C
  3
C1
350
5D
  3
C2
350
5E
  3
C3
350
5F
  3
C4
350
60
  3
C5
350
61
  3
C6
350
62
  3
C7
350
63
  3
C8
350
64
  3
C9
350
65
  3
D0
350
66
  3
D1
350
67
  3
D2
350
68
  0
XRECORD
  5
B2
102
{ACAD_REACTORS
330
C
102
}
330
C
100
AcDbXrecord
280
     1
  1
DWGPROPS COOKIE
  2

  3

  4

  6

  7

  8
b.kav
  9

300
=
301
=
302
=
303
=
304
=
305
=
306
=
307
=
308
=
309
=
 40
0.0
 41
2460697.416011921
 42
2460697.416012037
  1

 90
        0
  0
LAYOUT
  5
1E
102
{ACAD_REACTORS
330
1A
102
}
330
1A
100
AcDbPlotSettings
  1

  2
none_device
  4

  6

 40
0.0
 41
0.0
 42
0.0
 43
0.0
 44
0.0
 45
0.0
 46
0.0
 47
0.0
 48
0.0
 49
0.0
140
0.0
141
0.0
142
1.0
143
1.0
 70
   688
 72
     1
 73
     0
 74
     5
  7

 75
    16
147
1.0
148
0.0
149
0.0
100
AcDbLayout
  1
Layout1
 70
     1
 71
     1
 10
0.0
 20
0.0
 11
420.0
 21
297.0
 12
0.0
 22
0.0
 32
0.0
 14
1.0000000000E+20
 24
1.0000000000E+20
 34
1.0000000000E+20
 15
-1.0000000000E+20
 25
-1.0000000000E+20
 35
-1.0000000000E+20
146
0.0
 13
0.0
 23
0.0
 33
0.0
 16
1.0
 26
0.0
 36
0.0
 17
0.0
 27
1.0
 37
0.0
 76
     0
330
1B
  0
LAYOUT
  5
26
102
{ACAD_REACTORS
330
1A
102
}
330
1A
100
AcDbPlotSettings
  1

  2
none_device
  4

  6

 40
0.0
 41
0.0
 42
0.0
 43
0.0
 44
0.0
 45
0.0
 46
0.0
 47
0.0
 48
0.0
 49
0.0
140
0.0
141
0.0
142
1.0
143
1.0
 70
   688
 72
     1
 73
     0
 74
     5
  7

 75
    16
147
1.0
148
0.0
149
0.0
100
AcDbLayout
  1
Layout2
 70
     1
 71
     2
 10
0.0
 20
0.0
 11
0.0
 21
0.0
 12
0.0
 22
0.0
 32
0.0
 14
0.0
 24
0.0
 34
0.0
 15
0.0
 25
0.0
 35
0.0
146
0.0
 13
0.0
 23
0.0
 33
0.0
 16
1.0
 26
0.0
 36
0.0
 17
0.0
 27
1.0
 37
0.0
 76
     0
330
23
  0
LAYOUT
  5
22
102
{ACAD_REACTORS
330
1A
102
}
330
1A
100
AcDbPlotSettings
  1

  2
none_device
  4
Letter_(8.50_x_11.00_Inches)
  6

 40
6.35
 41
6.35
 42
6.35000508
 43
6.35000508
 44
215.9
 45
279.4
 46
0.0
 47
0.0
 48
0.0
 49
0.0
140
0.0
141
0.0
142
1.0
143
1.0
 70
  1712
 72
     1
 73
     0
 74
     0
  7

 75
     0
147
1.0
148
0.0
149
0.0
100
AcDbLayout
  1
Model
 70
     1
 71
     0
 10
0.0
 20
0.0
 11
279.4
 21
215.9
 12
0.0
 22
0.0
 32
0.0
 14
0.0
 24
0.0
 34
0.0
 15
279.4
 25
215.9
 35
0.0
146
0.0
 13
0.0
 23
0.0
 33
0.0
 16
1.0
 26
0.0
 36
0.0
 17
0.0
 27
1.0
 37
0.0
 76
     0
330
1F
331
29
  0
MLINESTYLE
  5
18
102
{ACAD_REACTORS
330
17
102
}
330
17
100
AcDbMlineStyle
  2
Standard
 70
     0
  3

 62
   256
 51
90.0
 52
90.0
 71
     2
 49
0.5
 62
   256
  6
BYLAYER
 49
-0.5
 62
   256
  6
BYLAYER
  0
ACDBPLACEHOLDER
  5
F
102
{ACAD_REACTORS
330
E
102
}
330
E
  0
SCALE
  5
48
102
{ACAD_REACTORS
330
47
102
}
330
47
100
AcDbScale
 70
     0
300
1:1
140
1.0
141
1.0
290
     1
  0
SCALE
  5
49
102
{ACAD_REACTORS
330
47
102
}
330
47
100
AcDbScale
 70
     0
300
1:2
140
1.0
141
2.0
290
     0
  0
SCALE
  5
4A
102
{ACAD_REACTORS
330
47
102
}
330
47
100
AcDbScale
 70
     0
300
1:4
140
1.0
141
4.0
290
     0
  0
SCALE
  5
4B
102
{ACAD_REACTORS
330
47
102
}
330
47
100
AcDbScale
 70
     0
300
1:5
140
1.0
141
5.0
290
     0
  0
SCALE
  5
4C
102
{ACAD_REACTORS
330
47
102
}
330
47
100
AcDbScale
 70
     0
300
1:8
140
1.0
141
8.0
290
     0
  0
SCALE
  5
4D
102
{ACAD_REACTORS
330
47
102
}
330
47
100
AcDbScale
 70
     0
300
1:10
140
1.0
141
10.0
290
     0
  0
SCALE
  5
4E
102
{ACAD_REACTORS
330
47
102
}
330
47
100
AcDbScale
 70
     0
300
1:16
140
1.0
141
16.0
290
     0
  0
SCALE
  5
4F
102
{ACAD_REACTORS
330
47
102
}
330
47
100
AcDbScale
 70
     0
300
1:20
140
1.0
141
20.0
290
     0
  0
SCALE
  5
50
102
{ACAD_REACTORS
330
47
102
}
330
47
100
AcDbScale
 70
     0
300
1:30
140
1.0
141
30.0
290
     0
  0
SCALE
  5
51
102
{ACAD_REACTORS
330
47
102
}
330
47
100
AcDbScale
 70
     0
300
1:40
140
1.0
141
40.0
290
     0
  0
SCALE
  5
52
102
{ACAD_REACTORS
330
47
102
}
330
47
100
AcDbScale
 70
     0
300
1:50
140
1.0
141
50.0
290
     0
  0
SCALE
  5
53
102
{ACAD_REACTORS
330
47
102
}
330
47
100
AcDbScale
 70
     0
300
1:100
140
1.0
141
100.0
290
     0
  0
SCALE
  5
54
102
{ACAD_REACTORS
330
47
102
}
330
47
100
AcDbScale
 70
     0
300
2:1
140
2.0
141
1.0
290
     0
  0
SCALE
  5
55
102
{ACAD_REACTORS
330
47
102
}
330
47
100
AcDbScale
 70
     0
300
4:1
140
4.0
141
1.0
290
     0
  0
SCALE
  5
56
102
{ACAD_REACTORS
330
47
102
}
330
47
100
AcDbScale
 70
     0
300
8:1
140
8.0
141
1.0
290
     0
  0
SCALE
  5
57
102
{ACAD_REACTORS
330
47
102
}
330
47
100
AcDbScale
 70
     0
300
10:1
140
10.0
141
1.0
290
     0
  0
SCALE
  5
58
102
{ACAD_REACTORS
330
47
102
}
330
47
100
AcDbScale
 70
     0
300
100:1
140
100.0
141
1.0
290
     0
  0
SCALE
  5
59
102
{ACAD_REACTORS
330
47
102
}
330
47
100
AcDbScale
 70
     0
300
1/128" = 1'-0"
140
0.0078125
141
12.0
290
     0
  0
SCALE
  5
5A
102
{ACAD_REACTORS
330
47
102
}
330
47
100
AcDbScale
 70
     0
300
1/64" = 1'-0"
140
0.015625
141
12.0
290
     0
  0
SCALE
  5
5B
102
{ACAD_REACTORS
330
47
102
}
330
47
100
AcDbScale
 70
     0
300
1/32" = 1'-0"
140
0.03125
141
12.0
290
     0
  0
SCALE
  5
5C
102
{ACAD_REACTORS
330
47
102
}
330
47
100
AcDbScale
 70
     0
300
1/16" = 1'-0"
140
0.0625
141
12.0
290
     0
  0
SCALE
  5
5D
102
{ACAD_REACTORS
330
47
102
}
330
47
100
AcDbScale
 70
     0
300
3/32" = 1'-0"
140
0.09375
141
12.0
290
     0
  0
SCALE
  5
5E
102
{ACAD_REACTORS
330
47
102
}
330
47
100
AcDbScale
 70
     0
300
1/8" = 1'-0"
140
0.125
141
12.0
290
     0
  0
SCALE
  5
5F
102
{ACAD_REACTORS
330
47
102
}
330
47
100
AcDbScale
 70
     0
300
3/16" = 1'-0"
140
0.1875
141
12.0
290
     0
  0
SCALE
  5
60
102
{ACAD_REACTORS
330
47
102
}
330
47
100
AcDbScale
 70
     0
300
1/4" = 1'-0"
140
0.25
141
12.0
290
     0
  0
SCALE
  5
61
102
{ACAD_REACTORS
330
47
102
}
330
47
100
AcDbScale
 70
     0
300
3/8" = 1'-0"
140
0.375
141
12.0
290
     0
  0
SCALE
  5
62
102
{ACAD_REACTORS
330
47
102
}
330
47
100
AcDbScale
 70
     0
300
1/2" = 1'-0"
140
0.5
141
12.0
290
     0
  0
SCALE
  5
63
102
{ACAD_REACTORS
330
47
102
}
330
47
100
AcDbScale
 70
     0
300
3/4" = 1'-0"
140
0.75
141
12.0
290
     0
  0
SCALE
  5
64
102
{ACAD_REACTORS
330
47
102
}
330
47
100
AcDbScale
 70
     0
300
1" = 1'-0"
140
1.0
141
12.0
290
     0
  0
SCALE
  5
65
102
{ACAD_REACTORS
330
47
102
}
330
47
100
AcDbScale
 70
     0
300
1-1/2" = 1'-0"
140
1.5
141
12.0
290
     0
  0
SCALE
  5
66
102
{ACAD_REACTORS
330
47
102
}
330
47
100
AcDbScale
 70
     0
300
3" = 1'-0"
140
3.0
141
12.0
290
     0
  0
SCALE
  5
67
102
{ACAD_REACTORS
330
47
102
}
330
47
100
AcDbScale
 70
     0
300
6" = 1'-0"
140
6.0
141
12.0
290
     0
  0
SCALE
  5
68
102
{ACAD_REACTORS
330
47
102
}
330
47
100
AcDbScale
 70
     0
300
1'-0" = 1'-0"
140
12.0
141
12.0
290
     0
  0
ENDSEC
  0
EOF
